Skip to main content

Jöjj Jézushoz (Come to Jesus )

Szerző: 
Chris Rice
Ajánlás típusa: 
zene
Video: 
Video

 Végh Viola és Sütő Réka előadása magyarul

<h4>Jöjj Jézushoz</h4>
Megfáradt, sebzett, beteg, <br>
Tévelygő áldozat<br>
Ó, hidd el már Atyád szerelme vár!<br>
Jöjj az Úrhoz, <br>
Jöjj Jézushoz, <br>
Jöjj Megváltódhoz, s élj!<br>
<br>
Átvette minden terhed,<br>
Távolra vetette,<br>
S drága vérrel mosott hófehérre.<br>
Ó, zengj az Úrnak, <br>
Zengj dalt Jézusnak,<br>
Zengj a Báránynak és élj!<br>
<br>
A kisgyermek hitében,<br>
Bátran indulj el!<br>
S ha elbuksz, majd ott  karjába zuhansz.<br>
Csak ess az Úrra, <br>
Ess Jézusra,<br>
Ess a Kősziklára s élj!<br>
<br>
Néha fájdalmon, s magányon<br>
Vezethet át utad<br>
S az ?? sötétje záporban szakad<br>
Kiálts az Úrhoz, <br>
Kiálts Jézushoz!<br>
Kiálts a Megtartódhoz, s élj!<br>
<br>
Ó, szerelme túlcsordultán<br>
Az égből dal fakad<br>
Jöjj, s örömödben imádd, Ő Urad!<br>
Táncolj az Úrral, <br>
Táncolj Jézussal!<br>
A Vőlegénnyel, s élj!<br>
<br>
S majd egy lélegzetedtől<br>
E világ elköszön,<br>
Békével menj, s nevess - dicsőség jön!<br>
Csak szállj az Úrhoz, <br>
Repülj Jézushoz!<br>
Szállj a Királyhoz és élj!<br>
<br>
Repülj Uradhoz, szállj Jézusodhoz<br>
Az Úr Krisztussal élj!<br>
<br><br>

 

<h4>Chris Rice - Untitled Hymn (Come To Jesus)</h4>
<br>
Weak and wounded sinner <br>
Lost and left to die <br>
O, raise your head, for love is passing by <br>
Come to Jesus <br>
Come to Jesus <br>
Come to Jesus and live! <br>
<br>
Now your burden's lifted <br>
And carried far away <br>
And precious blood has washed away the stain, so <br>
Sing to Jesus <br>
Sing to Jesus <br>
Sing to Jesus and live! <br>
<br>
And like a newborn baby <br>
Don't be afraid to crawl <br>
And remember when you walk <br>
Sometimes we fall...so <br>
Fall on Jesus <br>
Fall on Jesus <br>
Fall on Jesus and live! <br>
<br>
Sometimes the way is lonely <br>
And steep and filled with pain <br>
So if your sky is dark and pours the rain, then <br>
Cry to Jesus <br>
Cry to Jesus <br>
Cry to Jesus and live! <br>
<br>
O, and when the love spills over <br>
And music fills the night <br>
And when you can't contain your joy inside, then <br>
Dance for Jesus <br>
Dance for Jesus <br>
Dance for Jesus and live! <br>
<br>
And with your final heartbeat <br>
Kiss the world goodbye <br>
Then go in peace, and laugh on Glory's side, and <br>
Fly to Jesus <br>
Fly to Jesus <br>
Fly to Jesus and live! <br>
<br>
<span><font face="monospace">
 <b>Intro/verse:</b>
<br>
_____________G____Am_____B/G____Dm____Em___F_______Dm_________________C<br>
<br>
-0--1--3--------------------------------------------------------------3----------------------<br>
----------1--0-----1------3-----6-----8----10------6------3--------1-----0-------------------<br>
-----------------------------0-----7-----9-----10-----7---------0----------------------------<br>
----------------0-----0--------------------------------------0-------------------------------<br>
-------------------0------2-----5-----7-----8------5------2----------------------------------<br>
-------------3-------------------------------------------------------------------------------<br>

<br>
Chorus:<br><br>
_C_______________________F_____________________________C___________G____________C<br><br>
-3-----------0--------3--3--------3--1--------1--------0------------------------0------------<br>
----------1-----1--------------1-----------1--------------------1--0--------0---1------------<br>
-------0-----------0--------2-----------2--------------------0-----------0------0------------<br>
----2--------------------3--------------------------------2-----------0---------2------------<br>
-3-----------------------------------------------------3------------------------3------------<br>
-------------------------------------------------------------------3-------------------------<br>
<br>

<b>Intro</b><br>
C F C<br>
G Am7 G<br>
Dm C F G<br>
<br>
<b>Verse</b><br>
C F C<br>
G Am7 G<br>
Dm C F G<br>
<br>
Chorus<br>
C F C G C<br>
<br>
<b>Verse 2</b>(ugyanaz, mint verse 1)<br>
Chorus <br>
<br>
<b>Verse 3</b><br>
C# F# C#<br>
G# Bbm7 G#<br>
D#m7 C# F# G#<br>
<br>
Chorus 2<br>
C# F# C# G# C#<br>
<br>
<b>Verse 4</b><br>
(ugyanaz mint verse 3)<br>
Chorus 2<br>
<br>
<b>Verse 5</b><br>
D# G# D#<br>
Bb Cm7 Bb<br>
Fm D# G# Bb<br>
<br>
Chorus 3<br>
D# G# D# Bb D#<br>
<br>
<b>Verse 6</b><br>
(ugyanaz, mint verse 5)
Chorus 3(x2) <br>
</font>
</span>